ISO-10303-21;
HEADER;
FILE_DESCRIPTION (( 'STEP AP214' ),
    '1' );
FILE_NAME ('am-4497 Carousel Top.STEP',
    '2021-04-19T19:50:22',
    ( '' ),
    ( '' ),
    'SwSTEP 2.0',
    'SolidWorks 2019',
    '' );
FILE_SCHEMA (( 'AUTOMOTIVE_DESIGN' ));
ENDSEC;

DATA;
#1 = VERTEX_POINT ( 'NONE', #197 ) ;
#2 =( LENGTH_UNIT ( ) NAMED_UNIT ( * ) SI_UNIT ( $, .METRE. ) );
#3 = CARTESIAN_POINT ( 'NONE',  ( 0.8375000000000001332, 0.4724409448818898127, 0.4835308504463114443 ) ) ;
#4 = SURFACE_STYLE_USAGE ( .BOTH. , #75 ) ;
#5 = ORIENTED_EDGE ( 'NONE', *, *, #195, .T. ) ;
#6 = CIRCLE ( 'NONE', #84, 7.500000000000000000 ) ;
#7 = DIRECTION ( 'NONE',  ( 0.0000000000000000000, 0.0000000000000000000, -1.000000000000000000 ) ) ;
#8 = EDGE_LOOP ( 'NONE', ( #156 ) ) ;
#9 = EDGE_LOOP ( 'NONE', ( #186 ) ) ;
#10 = AXIS2_PLACEMENT_3D ( 'NONE', #139, #19, #163 ) ;
#11 = CARTESIAN_POINT ( 'NONE',  ( 0.0000000000000000000, 0.4724409448818898127, 0.0000000000000000000 ) ) ;
#12 = AXIS2_PLACEMENT_3D ( 'NONE', #193, #63, #210 ) ;
#13 = AXIS2_PLACEMENT_3D ( 'NONE', #11, #123, #187 ) ;
#14 = PRESENTATION_LAYER_ASSIGNMENT (  '', '', ( #36 ) ) ;
#15 = PRODUCT_DEFINITION_CONTEXT ( 'detailed design', #40, 'design' ) ;
#16 = EDGE_CURVE ( 'NONE', #1, #1, #86, .T. ) ;
#17 = VERTEX_POINT ( 'NONE', #70 ) ;
#18 = EDGE_CURVE ( 'NONE', #17, #17, #6, .T. ) ;
#19 = DIRECTION ( 'NONE',  ( 0.0000000000000000000, 1.000000000000000000, 0.0000000000000000000 ) ) ;
#20 = CIRCLE ( 'NONE', #124, 0.1285000000000000864 ) ;
#21 = DIRECTION ( 'NONE',  ( 0.0000000000000000000, 0.0000000000000000000, 1.000000000000000000 ) ) ;
#22 = CYLINDRICAL_SURFACE ( 'NONE', #109, 0.1285000000000000031 ) ;
#23 = FACE_OUTER_BOUND ( 'NONE', #46, .T. ) ;
#24 = ORIENTED_EDGE ( 'NONE', *, *, #16, .F. ) ;
#25 = UNCERTAINTY_MEASURE_WITH_UNIT (LENGTH_MEASURE( 1.000000000000000082E-05 ), #181, 'distance_accuracy_value', 'NONE');
#26 = ORIENTED_EDGE ( 'NONE', *, *, #18, .F. ) ;
#27 = SHAPE_DEFINITION_REPRESENTATION ( #132, #115 ) ;
#28 = VERTEX_POINT ( 'NONE', #111 ) ;
#29 = VERTEX_POINT ( 'NONE', #43 ) ;
#30 = EDGE_CURVE ( 'NONE', #162, #162, #20, .T. ) ;
#31 = COLOUR_RGB ( '',0.2509803921568627416, 0.2509803921568627416, 0.2509803921568627416 ) ;
#32 = LENGTH_MEASURE_WITH_UNIT ( LENGTH_MEASURE( 0.02539999999999999897 ), #2 );
#33 = DIRECTION ( 'NONE',  ( 0.0000000000000000000, 1.000000000000000000, 0.0000000000000000000 ) ) ;
#34 = FACE_OUTER_BOUND ( 'NONE', #8, .T. ) ;
#35 = EDGE_LOOP ( 'NONE', ( #137 ) ) ;
#36 = STYLED_ITEM ( 'NONE', ( #61 ), #115 ) ;
#37 = DIRECTION ( 'NONE',  ( -0.0000000000000000000, -1.000000000000000000, -0.0000000000000000000 ) ) ;
#38 = ORIENTED_EDGE ( 'NONE', *, *, #207, .F. ) ;
#39 = FACE_OUTER_BOUND ( 'NONE', #60, .T. ) ;
#40 = APPLICATION_CONTEXT ( 'automotive_design' ) ;
#41 = DIMENSIONAL_EXPONENTS ( 1.000000000000000000, 0.0000000000000000000, 0.0000000000000000000, 0.0000000000000000000, 0.0000000000000000000, 0.0000000000000000000, 0.0000000000000000000 ) ;
#42 = ORIENTED_EDGE ( 'NONE', *, *, #98, .T. ) ;
#43 = CARTESIAN_POINT ( 'NONE',  ( -0.8374999999999999112, 0.4724409448818898127, 0.6120308504463121135 ) ) ;
#44 = APPLICATION_PROTOCOL_DEFINITION ( 'draft international standard', 'automotive_design', 1998, #103 ) ;
#45 = FACE_BOUND ( 'NONE', #188, .T. ) ;
#46 = EDGE_LOOP ( 'NONE', ( #102 ) ) ;
#47 = AXIS2_PLACEMENT_3D ( 'NONE', #122, #92, #77 ) ;
#48 =( CONVERSION_BASED_UNIT ( 'INCH', #133 ) LENGTH_UNIT ( ) NAMED_UNIT ( #41 ) );
#49 = SURFACE_STYLE_USAGE ( .BOTH. , #95 ) ;
#50 = CARTESIAN_POINT ( 'NONE',  ( 0.0000000000000000000, 0.4724409448818898127, -0.8385617008926231630 ) ) ;
#51 = CARTESIAN_POINT ( 'NONE',  ( 0.0000000000000000000, 0.0000000000000000000, 0.0000000000000000000 ) ) ;
#52 = AXIS2_PLACEMENT_3D ( 'NONE', #117, #144, #161 ) ;
#53 =( LENGTH_UNIT ( ) NAMED_UNIT ( * ) SI_UNIT ( $, .METRE. ) );
#54 = VERTEX_POINT ( 'NONE', #120 ) ;
#55 = EDGE_LOOP ( 'NONE', ( #104 ) ) ;
#56 = DIRECTION ( 'NONE',  ( 0.0000000000000000000, 0.0000000000000000000, 1.000000000000000000 ) ) ;
#57 =( GEOMETRIC_REPRESENTATION_CONTEXT ( 3 ) GLOBAL_UNCERTAINTY_ASSIGNED_CONTEXT ( ( #105 ) ) GLOBAL_UNIT_ASSIGNED_CONTEXT ( ( #59, #147, #67 ) ) REPRESENTATION_CONTEXT ( 'NONE', 'WORKASPACE' ) );
#58 = CARTESIAN_POINT ( 'NONE',  ( -0.8374999999999999112, 0.4724409448818898127, 0.4835308504463120549 ) ) ;
#59 =( CONVERSION_BASED_UNIT ( 'INCH', #198 ) LENGTH_UNIT ( ) NAMED_UNIT ( #189 ) );
#60 = EDGE_LOOP ( 'NONE', ( #201 ) ) ;
#61 = PRESENTATION_STYLE_ASSIGNMENT (( #49 ) ) ;
#62 =( LENGTH_UNIT ( ) NAMED_UNIT ( * ) SI_UNIT ( $, .METRE. ) );
#63 = DIRECTION ( 'NONE',  ( 0.0000000000000000000, 1.000000000000000000, 0.0000000000000000000 ) ) ;
#64 = CIRCLE ( 'NONE', #87, 0.1285000000000000031 ) ;
#65 = FACE_OUTER_BOUND ( 'NONE', #184, .T. ) ;
#66 = FACE_BOUND ( 'NONE', #121, .T. ) ;
#67 =( NAMED_UNIT ( * ) SI_UNIT ( $, .STERADIAN. ) SOLID_ANGLE_UNIT ( ) );
#68 = FACE_OUTER_BOUND ( 'NONE', #167, .T. ) ;
#69 = AXIS2_PLACEMENT_3D ( 'NONE', #58, #79, #203 ) ;
#70 = CARTESIAN_POINT ( 'NONE',  ( 0.0000000000000000000, 0.0000000000000000000, 7.500000000000000000 ) ) ;
#71 = CIRCLE ( 'NONE', #47, 0.1285000000000000864 ) ;
#72 = PRODUCT_RELATED_PRODUCT_CATEGORY ( 'part', '', ( #164 ) ) ;
#73 = DIRECTION ( 'NONE',  ( 0.0000000000000000000, 1.000000000000000000, 0.0000000000000000000 ) ) ;
#74 = DIMENSIONAL_EXPONENTS ( 1.000000000000000000, 0.0000000000000000000, 0.0000000000000000000, 0.0000000000000000000, 0.0000000000000000000, 0.0000000000000000000, 0.0000000000000000000 ) ;
#75 = SURFACE_SIDE_STYLE ('',( #90 ) ) ;
#76 = CLOSED_SHELL ( 'NONE', ( #199, #196, #154, #190, #81, #107 ) ) ;
#77 = DIRECTION ( 'NONE',  ( 0.0000000000000000000, 0.0000000000000000000, 1.000000000000000000 ) ) ;
#78 = ORIENTED_EDGE ( 'NONE', *, *, #108, .T. ) ;
#79 = DIRECTION ( 'NONE',  ( -0.0000000000000000000, -1.000000000000000000, -0.0000000000000000000 ) ) ;
#80 = EDGE_LOOP ( 'NONE', ( #24 ) ) ;
#81 = ADVANCED_FACE ( 'NONE', ( #182, #159 ), #96, .F. ) ;
#82 =( NAMED_UNIT ( * ) PLANE_ANGLE_UNIT ( ) SI_UNIT ( $, .RADIAN. ) );
#83 = FACE_OUTER_BOUND ( 'NONE', #35, .T. ) ;
#84 = AXIS2_PLACEMENT_3D ( 'NONE', #51, #200, #21 ) ;
#85 = CYLINDRICAL_SURFACE ( 'NONE', #205, 7.500000000000000000 ) ;
#86 = CIRCLE ( 'NONE', #192, 0.1285000000000000864 ) ;
#87 = AXIS2_PLACEMENT_3D ( 'NONE', #155, #202, #56 ) ;
#88 = CARTESIAN_POINT ( 'NONE',  ( -0.8374999999999999112, 0.0000000000000000000, 0.4835308504463120549 ) ) ;
#89 = UNCERTAINTY_MEASURE_WITH_UNIT (LENGTH_MEASURE( 1.000000000000000082E-05 ), #48, 'distance_accuracy_value', 'NONE');
#90 = SURFACE_STYLE_FILL_AREA ( #152 ) ;
#91 = EDGE_LOOP ( 'NONE', ( #135 ) ) ;
#92 = DIRECTION ( 'NONE',  ( 0.0000000000000000000, 1.000000000000000000, 0.0000000000000000000 ) ) ;
#93 = EDGE_LOOP ( 'NONE', ( #78 ) ) ;
#94 = DIRECTION ( 'NONE',  ( 0.0000000000000000000, 0.0000000000000000000, -1.000000000000000000 ) ) ;
#95 = SURFACE_SIDE_STYLE ('',( #126 ) ) ;
#96 = CYLINDRICAL_SURFACE ( 'NONE', #69, 0.1285000000000000864 ) ;
#97 = COLOUR_RGB ( '',0.2509803921568627416, 0.2509803921568627416, 0.2509803921568627416 ) ;
#98 = EDGE_CURVE ( 'NONE', #54, #54, #130, .T. ) ;
#99 = CARTESIAN_POINT ( 'NONE',  ( 0.0000000000000000000, 0.4724409448818898127, -0.9670617008926232216 ) ) ;
#100 = DIRECTION ( 'NONE',  ( -0.0000000000000000000, -1.000000000000000000, -0.0000000000000000000 ) ) ;
#101 = CARTESIAN_POINT ( 'NONE',  ( 0.8375000000000001332, 0.4724409448818898127, 0.4835308504463114443 ) ) ;
#102 = ORIENTED_EDGE ( 'NONE', *, *, #146, .F. ) ;
#103 = APPLICATION_CONTEXT ( 'automotive_design' ) ;
#104 = ORIENTED_EDGE ( 'NONE', *, *, #30, .F. ) ;
#105 = UNCERTAINTY_MEASURE_WITH_UNIT (LENGTH_MEASURE( 1.000000000000000082E-05 ), #59, 'distance_accuracy_value', 'NONE');
#106 = FILL_AREA_STYLE_COLOUR ( '', #97 ) ;
#107 = ADVANCED_FACE ( 'NONE', ( #39, #23 ), #166, .F. ) ;
#108 = EDGE_CURVE ( 'NONE', #28, #28, #64, .T. ) ;
#109 = AXIS2_PLACEMENT_3D ( 'NONE', #116, #142, #160 ) ;
#110 = PLANE ( 'NONE',  #131 ) ;
#111 = CARTESIAN_POINT ( 'NONE',  ( 0.0000000000000000000, 0.0000000000000000000, -0.8385617008926231630 ) ) ;
#112 = PRESENTATION_LAYER_ASSIGNMENT (  '', '', ( #204 ) ) ;
#113 = DIRECTION ( 'NONE',  ( 0.0000000000000000000, 0.0000000000000000000, 1.000000000000000000 ) ) ;
#114 = DIRECTION ( 'NONE',  ( 0.0000000000000000000, 1.000000000000000000, 0.0000000000000000000 ) ) ;
#115 = ADVANCED_BREP_SHAPE_REPRESENTATION ( 'am-4497 Carousel Top', ( #174, #52 ), #129 ) ;
#116 = CARTESIAN_POINT ( 'NONE',  ( 0.0000000000000000000, 0.4724409448818898127, -0.9670617008926232216 ) ) ;
#117 = CARTESIAN_POINT ( 'NONE',  ( 0.0000000000000000000, 0.0000000000000000000, 0.0000000000000000000 ) ) ;
#118 = ORIENTED_EDGE ( 'NONE', *, *, #207, .T. ) ;
#119 = PRESENTATION_STYLE_ASSIGNMENT (( #4 ) ) ;
#120 = CARTESIAN_POINT ( 'NONE',  ( 0.0000000000000000000, 0.4724409448818898127, 7.500000000000000000 ) ) ;
#121 = EDGE_LOOP ( 'NONE', ( #206 ) ) ;
#122 = CARTESIAN_POINT ( 'NONE',  ( 0.8375000000000001332, 0.0000000000000000000, 0.4835308504463114443 ) ) ;
#123 = DIRECTION ( 'NONE',  ( 0.0000000000000000000, 1.000000000000000000, 0.0000000000000000000 ) ) ;
#124 = AXIS2_PLACEMENT_3D ( 'NONE', #88, #33, #151 ) ;
#125 = EDGE_LOOP ( 'NONE', ( #118 ) ) ;
#126 = SURFACE_STYLE_FILL_AREA ( #171 ) ;
#127 = FACE_OUTER_BOUND ( 'NONE', #125, .T. ) ;
#128 = FACE_BOUND ( 'NONE', #93, .T. ) ;
#129 =( GEOMETRIC_REPRESENTATION_CONTEXT ( 3 ) GLOBAL_UNCERTAINTY_ASSIGNED_CONTEXT ( ( #25 ) ) GLOBAL_UNIT_ASSIGNED_CONTEXT ( ( #181, #82, #191 ) ) REPRESENTATION_CONTEXT ( 'NONE', 'WORKASPACE' ) );
#130 = CIRCLE ( 'NONE', #13, 7.500000000000000000 ) ;
#131 = AXIS2_PLACEMENT_3D ( 'NONE', #176, #158, #140 ) ;
#132 = PRODUCT_DEFINITION_SHAPE ( 'NONE', 'NONE',  #179 ) ;
#133 = LENGTH_MEASURE_WITH_UNIT ( LENGTH_MEASURE( 0.02539999999999999897 ), #53 );
#134 = DIRECTION ( 'NONE',  ( 0.0000000000000000000, 0.0000000000000000000, 1.000000000000000000 ) ) ;
#135 = ORIENTED_EDGE ( 'NONE', *, *, #30, .T. ) ;
#136 = MECHANICAL_DESIGN_GEOMETRIC_PRESENTATION_REPRESENTATION (  '', ( #36 ), #57 ) ;
#137 = ORIENTED_EDGE ( 'NONE', *, *, #108, .F. ) ;
#138 = FACE_BOUND ( 'NONE', #80, .T. ) ;
#139 = CARTESIAN_POINT ( 'NONE',  ( 0.0000000000000000000, 0.4724409448818898127, 0.0000000000000000000 ) ) ;
#140 = DIRECTION ( 'NONE',  ( 0.0000000000000000000, -0.0000000000000000000, 1.000000000000000000 ) ) ;
#141 = CARTESIAN_POINT ( 'NONE',  ( -0.8374999999999999112, 0.0000000000000000000, 0.6120308504463121135 ) ) ;
#142 = DIRECTION ( 'NONE',  ( -0.0000000000000000000, -1.000000000000000000, -0.0000000000000000000 ) ) ;
#143 = AXIS2_PLACEMENT_3D ( 'NONE', #99, #114, #113 ) ;
#144 = DIRECTION ( 'NONE',  ( 0.0000000000000000000, 0.0000000000000000000, 1.000000000000000000 ) ) ;
#145 = CIRCLE ( 'NONE', #143, 0.1285000000000000031 ) ;
#146 = EDGE_CURVE ( 'NONE', #150, #150, #71, .T. ) ;
#147 =( NAMED_UNIT ( * ) PLANE_ANGLE_UNIT ( ) SI_UNIT ( $, .RADIAN. ) );
#148 = VERTEX_POINT ( 'NONE', #50 ) ;
#149 = FACE_OUTER_BOUND ( 'NONE', #9, .T. ) ;
#150 = VERTEX_POINT ( 'NONE', #157 ) ;
#151 = DIRECTION ( 'NONE',  ( 0.0000000000000000000, 0.0000000000000000000, 1.000000000000000000 ) ) ;
#152 = FILL_AREA_STYLE ('',( #165 ) ) ;
#153 = EDGE_LOOP ( 'NONE', ( #38 ) ) ;
#154 = ADVANCED_FACE ( 'NONE', ( #34, #149 ), #85, .T. ) ;
#155 = CARTESIAN_POINT ( 'NONE',  ( 0.0000000000000000000, 0.0000000000000000000, -0.9670617008926232216 ) ) ;
#156 = ORIENTED_EDGE ( 'NONE', *, *, #98, .F. ) ;
#157 = CARTESIAN_POINT ( 'NONE',  ( 0.8375000000000001332, 0.0000000000000000000, 0.6120308504463115584 ) ) ;
#158 = DIRECTION ( 'NONE',  ( 0.0000000000000000000, 1.000000000000000000, 0.0000000000000000000 ) ) ;
#159 = FACE_OUTER_BOUND ( 'NONE', #55, .T. ) ;
#160 = DIRECTION ( 'NONE',  ( 0.0000000000000000000, 0.0000000000000000000, -1.000000000000000000 ) ) ;
#161 = DIRECTION ( 'NONE',  ( 1.000000000000000000, 0.0000000000000000000, 0.0000000000000000000 ) ) ;
#162 = VERTEX_POINT ( 'NONE', #141 ) ;
#163 = DIRECTION ( 'NONE',  ( 0.0000000000000000000, -0.0000000000000000000, 1.000000000000000000 ) ) ;
#164 = PRODUCT ( 'am-4497 Carousel Top', 'am-4497 Carousel Top', '', ( #178 ) ) ;
#165 = FILL_AREA_STYLE_COLOUR ( '', #31 ) ;
#166 = CYLINDRICAL_SURFACE ( 'NONE', #175, 0.1285000000000000864 ) ;
#167 = EDGE_LOOP ( 'NONE', ( #42 ) ) ;
#168 =( NAMED_UNIT ( * ) PLANE_ANGLE_UNIT ( ) SI_UNIT ( $, .RADIAN. ) );
#169 = EDGE_LOOP ( 'NONE', ( #5 ) ) ;
#170 = ORIENTED_EDGE ( 'NONE', *, *, #146, .T. ) ;
#171 = FILL_AREA_STYLE ('',( #106 ) ) ;
#172 = APPLICATION_PROTOCOL_DEFINITION ( 'draft international standard', 'automotive_design', 1998, #40 ) ;
#173 = PRODUCT_DEFINITION_FORMATION_WITH_SPECIFIED_SOURCE ( 'ANY', '', #164, .NOT_KNOWN. ) ;
#174 = MANIFOLD_SOLID_BREP ( 'Boss-Extrude1', #76 ) ;
#175 = AXIS2_PLACEMENT_3D ( 'NONE', #101, #37, #7 ) ;
#176 = CARTESIAN_POINT ( 'NONE',  ( 0.0000000000000000000, 0.0000000000000000000, 0.0000000000000000000 ) ) ;
#177 = FACE_BOUND ( 'NONE', #153, .T. ) ;
#178 = PRODUCT_CONTEXT ( 'NONE', #103, 'mechanical' ) ;
#179 = PRODUCT_DEFINITION ( 'UNKNOWN', '', #173, #15 ) ;
#180 =( GEOMETRIC_REPRESENTATION_CONTEXT ( 3 ) GLOBAL_UNCERTAINTY_ASSIGNED_CONTEXT ( ( #89 ) ) GLOBAL_UNIT_ASSIGNED_CONTEXT ( ( #48, #168, #208 ) ) REPRESENTATION_CONTEXT ( 'NONE', 'WORKASPACE' ) );
#181 =( CONVERSION_BASED_UNIT ( 'INCH', #32 ) LENGTH_UNIT ( ) NAMED_UNIT ( #74 ) );
#182 = FACE_OUTER_BOUND ( 'NONE', #169, .T. ) ;
#183 = CARTESIAN_POINT ( 'NONE',  ( 0.0000000000000000000, 0.4724409448818898127, 0.0000000000000000000 ) ) ;
#184 = EDGE_LOOP ( 'NONE', ( #26 ) ) ;
#185 = MECHANICAL_DESIGN_GEOMETRIC_PRESENTATION_REPRESENTATION (  '', ( #204 ), #180 ) ;
#186 = ORIENTED_EDGE ( 'NONE', *, *, #18, .T. ) ;
#187 = DIRECTION ( 'NONE',  ( 0.0000000000000000000, 0.0000000000000000000, 1.000000000000000000 ) ) ;
#188 = EDGE_LOOP ( 'NONE', ( #170 ) ) ;
#189 = DIMENSIONAL_EXPONENTS ( 1.000000000000000000, 0.0000000000000000000, 0.0000000000000000000, 0.0000000000000000000, 0.0000000000000000000, 0.0000000000000000000, 0.0000000000000000000 ) ;
#190 = ADVANCED_FACE ( 'NONE', ( #127, #83 ), #22, .F. ) ;
#191 =( NAMED_UNIT ( * ) SI_UNIT ( $, .STERADIAN. ) SOLID_ANGLE_UNIT ( ) );
#192 = AXIS2_PLACEMENT_3D ( 'NONE', #3, #73, #134 ) ;
#193 = CARTESIAN_POINT ( 'NONE',  ( -0.8374999999999999112, 0.4724409448818898127, 0.4835308504463120549 ) ) ;
#194 = FACE_BOUND ( 'NONE', #91, .T. ) ;
#195 = EDGE_CURVE ( 'NONE', #29, #29, #211, .T. ) ;
#196 = ADVANCED_FACE ( 'NONE', ( #65, #128, #194, #45 ), #110, .F. ) ;
#197 = CARTESIAN_POINT ( 'NONE',  ( 0.8375000000000001332, 0.4724409448818898127, 0.6120308504463115584 ) ) ;
#198 = LENGTH_MEASURE_WITH_UNIT ( LENGTH_MEASURE( 0.02539999999999999897 ), #62 );
#199 = ADVANCED_FACE ( 'NONE', ( #66, #68, #177, #138 ), #209, .T. ) ;
#200 = DIRECTION ( 'NONE',  ( 0.0000000000000000000, 1.000000000000000000, 0.0000000000000000000 ) ) ;
#201 = ORIENTED_EDGE ( 'NONE', *, *, #16, .T. ) ;
#202 = DIRECTION ( 'NONE',  ( 0.0000000000000000000, 1.000000000000000000, 0.0000000000000000000 ) ) ;
#203 = DIRECTION ( 'NONE',  ( 0.0000000000000000000, 0.0000000000000000000, -1.000000000000000000 ) ) ;
#204 = STYLED_ITEM ( 'NONE', ( #119 ), #174 ) ;
#205 = AXIS2_PLACEMENT_3D ( 'NONE', #183, #100, #94 ) ;
#206 = ORIENTED_EDGE ( 'NONE', *, *, #195, .F. ) ;
#207 = EDGE_CURVE ( 'NONE', #148, #148, #145, .T. ) ;
#208 =( NAMED_UNIT ( * ) SI_UNIT ( $, .STERADIAN. ) SOLID_ANGLE_UNIT ( ) );
#209 = PLANE ( 'NONE',  #10 ) ;
#210 = DIRECTION ( 'NONE',  ( 0.0000000000000000000, 0.0000000000000000000, 1.000000000000000000 ) ) ;
#211 = CIRCLE ( 'NONE', #12, 0.1285000000000000864 ) ;
ENDSEC;
END-ISO-10303-21;
